  0
SECTION
  2
HEADER
  9
$ACADVER
  1
AC1018
  9
$ACADMAINTVER
 70
     0
  9
$DWGCODEPAGE
  3
ANSI_932
  9
$INSBASE
 10
0.000000
 20
0.000000
 30
0.000000
  9
$EXTMIN
 10
0.000000
 20
0.000000
 30
0.000000
  9
$EXTMAX
 10
190.000000
 20
257.000000
 30
0.000000
  9
$LIMMIN
 10
0.000000
 20
0.000000
  9
$LIMMAX
 10
190.000000
 20
257.000000
  9
$ORTHOMODE
 70
     0
  9
$REGENMODE
 70
     1
  9
$FILLMODE
 70
     1
  9
$QTEXTMODE
 70
     0
  9
$MIRRTEXT
 70
     1
  9
$LTSCALE
 40
1.000000
  9
$ATTMODE
 70
     1
  9
$TEXTSIZE
 40
2.500000
  9
$TRACEWID
 40
1.000000
  9
$TEXTSTYLE
  7
BIGFONT
  9
$CLAYER
  8
0
  9
$CELTYPE
  6
BYLAYER
  9
$CECOLOR
 62
   256
  9
$CELTSCALE
 40
1.000000
  9
$DISPSILH
 70
     0
  9
$DIMSCALE
 40
1.000000
  9
$DIMASZ
 40
2.500000
  9
$DIMEXO
 40
0.625000
  9
$DIMDLI
 40
3.750000
  9
$DIMRND
 40
0.000000
  9
$DIMDLE
 40
0.000000
  9
$DIMEXE
 40
1.250000
  9
$DIMTP
 40
0.000000
  9
$DIMTM
 40
0.000000
  9
$DIMTXT
 40
2.500000
  9
$DIMCEN
 40
2.500000
  9
$DIMTSZ
 40
0.000000
  9
$DIMTOL
 70
     0
  9
$DIMLIM
 70
     0
  9
$DIMTIH
 70
     0
  9
$DIMTOH
 70
     0
  9
$DIMSE1
 70
     0
  9
$DIMSE2
 70
     0
  9
$DIMTAD
 70
     1
  9
$DIMZIN
 70
     8
  9
$DIMBLK
  1

  9
$DIMASO
 70
     1
  9
$DIMSHO
 70
     1
  9
$DIMPOST
  1

  9
$DIMAPOST
  1

  9
$DIMALT
 70
     0
  9
$DIMALTD
 70
     4
  9
$DIMALTF
 40
0.039400
  9
$DIMLFAC
 40
1.000000
  9
$DIMTOFL
 70
     1
  9
$DIMTVP
 40
0.000000
  9
$DIMTIX
 70
     0
  9
$DIMSOXD
 70
     0
  9
$DIMSAH
 70
     0
  9
$DIMBLK1
  1

  9
$DIMBLK2
  1

  9
$DIMSTYLE
  2
STANDARD
  9
$DIMCLRD
 70
     0
  9
$DIMCLRE
 70
     0
  9
$DIMCLRT
 70
     0
  9
$DIMTFAC
 40
1.000000
  9
$DIMGAP
 40
0.625000
  9
$DIMJUST
 70
     0
  9
$DIMSD1
 70
     0
  9
$DIMSD2
 70
     0
  9
$DIMTOLJ
 70
     1
  9
$DIMTZIN
 70
     0
  9
$DIMALTZ
 70
     0
  9
$DIMALTTZ
 70
     0
  9
$DIMUPT
 70
     0
  9
$DIMDEC
 70
     4
  9
$DIMTDEC
 70
     4
  9
$DIMALTU
 70
     8
  9
$DIMALTTD
 70
     4
  9
$DIMTXSTY
  7
STANDARD
  9
$DIMAUNIT
 70
     0
  9
$DIMADEC
 70
     0
  9
$DIMALTRND
 40
0.000000
  9
$DIMAZIN
 70
     0
  9
$DIMDSEP
 70
    46
  9
$DIMATFIT
 70
     3
  9
$DIMFRAC
 70
     0
  9
$DIMLDRBLK
  1

  9
$DIMLUNIT
 70
     2
  9
$DIMLWD
 70
-2
  9
$DIMLWE
 70
-2
  9
$DIMTMOVE
 70
     0
  9
$LUNITS
 70
     2
  9
$LUPREC
 70
     4
  9
$AXISMODE
 70
     0
  9
$SKETCHINC
 40
1.000000
  9
$FILLETRAD
 40
10.000000
  9
$AUNITS
 70
     0
  9
$AUPREC
 70
     0
  9
$MENU
  1
acad
  9
$ELEVATION
 40
0.000000
  9
$PELEVATION
 40
0.000000
  9
$THICKNESS
 40
0.000000
  9
$LIMCHECK
 70
     0
  9
$BLIPMODE
 70
     0
  9
$CHAMFERA
 40
10.000000
  9
$CHAMFERB
 40
10.000000
  9
$CHAMFERC
 40
20.000000
  9
$CHAMFERD
 40
0.000000
  9
$SKPOLY
 70
     0
  9
$TDCREATE
 40
2447851.677998
  9
$TDUCREATE
 40
2447851.677998
  9
$TDUPDATE
 40
2447851.677998
  9
$TDUUPDATE
 40
2447851.677998
  9
$TDINDWG
 40
0.000000
  9
$TDUSRTIMER
 40
0.000000
  9
$USRTIMER
 70
     1
  9
$ANGBASE
 50
0.000000
  9
$ANGDIR
 70
     0
  9
$PDMODE
 70
     0
  9
$PDSIZE
 40
0.000000
  9
$PLINEWID
 40
0.000000
  9
$SPLFRAME
 70
     0
  9
$SPLINETYPE
 70
     6
  9
$SPLINESEGS
 70
     8
  9
$HANDSEED
  5
FFFFFFF
  9
$SURFTAB1
 70
     6
  9
$SURFTAB2
 70
     6
  9
$SURFTYPE
 70
     6
  9
$SURFU
 70
     6
  9
$SURFV
 70
     6
  9
$UCSBASE
  2

  9
$UCSNAME
  2

  9
$UCSORG
 10
0.000000
 20
0.000000
 30
0.000000
  9
$UCSXDIR
 10
1.000000
 20
0.000000
 30
0.000000
  9
$UCSYDIR
 10
0.000000
 20
1.000000
 30
0.000000
  9
$UCSORTHOREF
  2

  9
$UCSORTHOVIEW
 70
     0
  9
$UCSORGTOP
 10
0.000000
 20
0.000000
 30
0.000000
  9
$UCSORGBOTTOM
 10
0.000000
 20
0.000000
 30
0.000000
  9
$UCSORGLEFT
 10
0.000000
 20
0.000000
 30
0.000000
  9
$UCSORGRIGHT
 10
0.000000
 20
0.000000
 30
0.000000
  9
$UCSORGFRONT
 10
0.000000
 20
0.000000
 30
0.000000
  9
$UCSORGBACK
 10
0.000000
 20
0.000000
 30
0.000000
  9
$PUCSBASE
  2

  9
$PUCSNAME
  2

  9
$PUCSORG
 10
0.000000
 20
0.000000
 30
0.000000
  9
$PUCSXDIR
 10
1.000000
 20
0.000000
 30
0.000000
  9
$PUCSYDIR
 10
0.000000
 20
1.000000
 30
0.000000
  9
$PUCSORTHOREF
  2

  9
$PUCSORTHOVIEW
 70
     0
  9
$PUCSORGTOP
 10
0.000000
 20
0.000000
 30
0.000000
  9
$PUCSORGBOTTOM
 10
0.000000
 20
0.000000
 30
0.000000
  9
$PUCSORGLEFT
 10
0.000000
 20
0.000000
 30
0.000000
  9
$PUCSORGRIGHT
 10
0.000000
 20
0.000000
 30
0.000000
  9
$PUCSORGFRONT
 10
0.000000
 20
0.000000
 30
0.000000
  9
$PUCSORGBACK
 10
0.000000
 20
0.000000
 30
0.000000
  9
$USERI1
 70
     0
  9
$USERI2
 70
     0
  9
$USERI3
 70
     0
  9
$USERI4
 70
     0
  9
$USERI5
 70
     0
  9
$USERR1
 40
0.000000
  9
$USERR2
 40
0.000000
  9
$USERR3
 40
0.000000
  9
$USERR4
 40
0.000000
  9
$USERR5
 40
0.000000
  9
$WORLDVIEW
 70
     1
  9
$SHADEDGE
 70
     3
  9
$SHADEDIF
 70
    70
  9
$TILEMODE
 70
     1
  9
$MAXACTVP
 70
    48
  9
$PINSBASE
 10
0.000000
 20
0.000000
 30
0.000000
  9
$PLIMCHECK
 70
     0
  9
$PEXTMIN
 10
100000000000000000000.000000
 20
100000000000000000000.000000
 30
100000000000000000000.000000
  9
$PEXTMAX
 10
-100000000000000000000.000000
 20
-100000000000000000000.000000
 30
-100000000000000000000.000000
  9
$PLIMMIN
 10
0.000000
 20
0.000000
  9
$PLIMMAX
 10
190.000000
 20
257.000000
  9
$UNITMODE
 70
     0
  9
$VISRETAIN
 70
     1
  9
$PLINEGEN
 70
     0
  9
$PSLTSCALE
 70
     1
  9
$TREEDEPTH
 70
  3020
  9
$CMLSTYLE
  2
STANDARD
  9
$CMLJUST
 70
     0
  9
$CMLSCALE
 40
20.000000
  9
$PROXYGRAPHICS
 70
     1
  9
$MEASUREMENT
 70
     1
  9
$CELWEIGHT
370
-1
  9
$ENDCAPS
280
     0
  9
$JOINSTYLE
280
     0
  9
$LWDISPLAY
290
     1
  9
$INSUNITS
 70
     0
  9
$HYPERLINKBASE
  1

  9
$STYLESHEET
  1

  9
$XEDIT
290
     1
  9
$CEPSNTYPE
380
     0
  9
$PSTYLEMODE
290
     1
  9
$FINGERPRINTGUID
  2
{01801163-5BC0-459E-B9C7-2188C09ED432}
  9
$VERSIONGUID
  2
{7F326DDD-95DF-42AD-9861-A0CD9F0961F2}
  9
$EXTNAMES
290
     1
  9
$PSVPSCALE
 40
0.0
  9
$OLESTARTUP
290
     0
  9
$SORTENTS
280
   127
  9
$INDEXCTL
280
     0
  9
$HIDETEXT
280
     1
  9
$XCLIPFRAME
290
     0
  9
$HALOGAP
280
     0
  9
$OBSCOLOR
 70
   257
  9
$OBSLTYPE
280
     0
  9
$INTERSECTIONDISPLAY
280
     0
  9
$INTERSECTIONCOLOR
 70
   257
  9
$DIMASSOC
280
     2
  9
$PROJECTNAME
  1

  0
ENDSEC
  0
SECTION
  2
TABLES
  0
TABLE
  2
VPORT
  5
a2
100
AcDbSymbolTable
 70
     2
  0
VPORT
  5
a5
100
AcDbSymbolTableRecord
100
AcDbViewportTableRecord
  2
*ACTIVE
 70
     0
 10
0.000000
 20
0.000000
 11
1.000000
 21
1.000000
 12
300.000000
 22
200.000000
 13
0.000000
 23
0.000000
 14
10.000000
 24
10.000000
 15
10.000000
 25
10.000000
 16
0.000000
 26
0.000000
 36
1.000000
 17
0.000000
 27
0.000000
 37
0.000000
 40
300.000000
 41
1.600432
 42
50.000000
 43
0.000000
 44
0.000000
 50
0.000000
 51
0.000000
 71
     0
 72
   100
 73
     1
 74
     1
 75
     0
 76
     0
 77
     0
 78
     0
  0
ENDTAB
  0
TABLE
  2
LTYPE
  5
a8
100
AcDbSymbolTable
 70
    11
  0
LTYPE
  5
ab
100
AcDbSymbolTableRecord
100
AcDbLinetypeTableRecord
  2
BYBLOCK
 70
    64
  3
BYBLOCK
 72
    65
 73
     0
 40
0.000000
  0
LTYPE
  5
ae
100
AcDbSymbolTableRecord
100
AcDbLinetypeTableRecord
  2
BYLAYER
 70
    64
  3
BYLAYER
 72
    65
 73
     0
 40
0.000000
  0
LTYPE
  5
b1
100
AcDbSymbolTableRecord
100
AcDbLinetypeTableRecord
  2
CONTINUOUS
 70
    64
  3
実線
 72
    65
 73
     0
 40
0.000000
  0
LTYPE
  5
b4
100
AcDbSymbolTableRecord
100
AcDbLinetypeTableRecord
  2
DASHED
 70
    64
  3
__ __ __ __ __ __ __ __ __ __ __ __ __ __ __
 72
    65
 73
     2
 40
0.750000
 49
0.500000
 74
     0
 49
-0.250000
 74
     0
  0
LTYPE
  5
b7
100
AcDbSymbolTableRecord
100
AcDbLinetypeTableRecord
  2
HIDDEN
 70
    64
  3
_ _ _ _ _ _ _ _ _ _ _ _ _ _ _ _ _ _ _ _ _ _ _
 72
    65
 73
     2
 40
0.375000
 49
0.250000
 74
     0
 49
-0.125000
 74
     0
  0
LTYPE
  5
ba
100
AcDbSymbolTableRecord
100
AcDbLinetypeTableRecord
  2
CENTER
 70
    64
  3
____ _ ____ _ ____ _ ____ _ ____ _ ____ _ ____
 72
    65
 73
     4
 40
2.000000
 49
1.250000
 74
     0
 49
-0.250000
 74
     0
 49
0.250000
 74
     0
 49
-0.250000
 74
     0
  0
LTYPE
  5
bd
100
AcDbSymbolTableRecord
100
AcDbLinetypeTableRecord
  2
PHANTOM
 70
    64
  3
_____ _ _ _____ _ _ _____ _ _ _____ _ _ ____
 72
    65
 73
     6
 40
2.500000
 49
1.250000
 74
     0
 49
-0.250000
 74
     0
 49
0.250000
 74
     0
 49
-0.250000
 74
     0
 49
0.250000
 74
     0
 49
-0.250000
 74
     0
  0
LTYPE
  5
c0
100
AcDbSymbolTableRecord
100
AcDbLinetypeTableRecord
  2
DOT
 70
    64
  3
...............................................
 72
    65
 73
     2
 40
0.250000
 49
0.000000
 74
     0
 49
-0.250000
 74
     0
  0
LTYPE
  5
c3
100
AcDbSymbolTableRecord
100
AcDbLinetypeTableRecord
  2
DASHDOT
 70
    64
  3
__ . __ . __ . __ . __ . __ . __ . __ . __ . __
 72
    65
 73
     4
 40
1.000000
 49
0.500000
 74
     0
 49
-0.250000
 74
     0
 49
0.000000
 74
     0
 49
-0.250000
 74
     0
  0
LTYPE
  5
c6
100
AcDbSymbolTableRecord
100
AcDbLinetypeTableRecord
  2
BORDER
 70
    64
  3
__ __ . __ __ . __ __ . __ __ . __ __ . __ __
 72
    65
 73
     6
 40
1.750000
 49
0.500000
 74
     0
 49
-0.250000
 74
     0
 49
0.500000
 74
     0
 49
-0.250000
 74
     0
 49
0.000000
 74
     0
 49
-0.250000
 74
     0
  0
LTYPE
  5
c9
100
AcDbSymbolTableRecord
100
AcDbLinetypeTableRecord
  2
DIVIDE
 70
    64
  3
__ . . __ . . __ . . __ . . __ . . __ . . __
 72
    65
 73
     6
 40
1.250000
 49
0.500000
 74
     0
 49
-0.250000
 74
     0
 49
0.000000
 74
     0
 49
-0.250000
 74
     0
 49
0.000000
 74
     0
 49
-0.250000
 74
     0
  0
ENDTAB
  0
TABLE
  2
LAYER
  5
cc
100
AcDbSymbolTable
 70
     2
  0
LAYER
  5
cf
100
AcDbSymbolTableRecord
100
AcDbLayerTableRecord
  2
0
 70
     0
 62
     7
  6
CONTINUOUS
370
 65533
390
	F
  0
LAYER
  5
d2
100
AcDbSymbolTableRecord
100
AcDbLayerTableRecord
  2
B
 70
     0
 62
     7
  6
CONTINUOUS
370
 65533
390
	F
  0
LAYER
  5
d5
100
AcDbSymbolTableRecord
100
AcDbLayerTableRecord
  2
C
 70
     0
 62
     7
  6
CONTINUOUS
370
 65533
390
	F
  0
LAYER
  5
d8
100
AcDbSymbolTableRecord
100
AcDbLayerTableRecord
  2
D
 70
     0
 62
     7
  6
CONTINUOUS
370
 65533
390
	F
  0
LAYER
  5
db
100
AcDbSymbolTableRecord
100
AcDbLayerTableRecord
  2
E
 70
     0
 62
     7
  6
CONTINUOUS
370
 65533
390
	F
  0
LAYER
  5
de
100
AcDbSymbolTableRecord
100
AcDbLayerTableRecord
  2
F
 70
     0
 62
     7
  6
CONTINUOUS
370
 65533
390
	F
  0
LAYER
  5
e1
100
AcDbSymbolTableRecord
100
AcDbLayerTableRecord
  2
G
 70
     0
 62
     7
  6
CONTINUOUS
370
 65533
390
	F
  0
LAYER
  5
e4
100
AcDbSymbolTableRecord
100
AcDbLayerTableRecord
  2
H
 70
     0
 62
     7
  6
CONTINUOUS
370
 65533
390
	F
  0
LAYER
  5
e7
100
AcDbSymbolTableRecord
100
AcDbLayerTableRecord
  2
I
 70
     0
 62
     7
  6
CONTINUOUS
370
 65533
390
	F
  0
LAYER
  5
ea
100
AcDbSymbolTableRecord
100
AcDbLayerTableRecord
  2
J
 70
     0
 62
     7
  6
CONTINUOUS
370
 65533
390
	F
  0
LAYER
  5
ed
100
AcDbSymbolTableRecord
100
AcDbLayerTableRecord
  2
K
 70
     0
 62
     7
  6
CONTINUOUS
370
 65533
390
	F
  0
LAYER
  5
f0
100
AcDbSymbolTableRecord
100
AcDbLayerTableRecord
  2
L
 70
     0
 62
     7
  6
CONTINUOUS
370
 65533
390
	F
  0
LAYER
  5
f3
100
AcDbSymbolTableRecord
100
AcDbLayerTableRecord
  2
M
 70
     0
 62
     7
  6
CONTINUOUS
370
 65533
390
	F
  0
LAYER
  5
f6
100
AcDbSymbolTableRecord
100
AcDbLayerTableRecord
  2
N
 70
     0
 62
     7
  6
CONTINUOUS
370
 65533
390
	F
  0
ENDTAB
  0
TABLE
  2
STYLE
  5
f9
100
AcDbSymbolTable
 70
     2
  0
STYLE
  5
fc
100
AcDbSymbolTableRecord
100
AcDbTextStyleTableRecord
  2
STANDARD
 70
     0
 40
0.000000
 41
0.500000
 50
0.000000
 71
     0
 42
0.300000
  3
txt
  4

  0
STYLE
  5
ff
100
AcDbSymbolTableRecord
100
AcDbTextStyleTableRecord
  2
BIGFONT
 70
    64
 40
0.000000
 41
1.000000
 50
0.000000
 71
     0
 42
0.200000
  3

  4
bigfont
  0
ENDTAB
  0
TABLE
  2
VIEW
  5
102
100
AcDbSymbolTable
 70
     0
  0
ENDTAB
  0
TABLE
  2
UCS
  5
105
100
AcDbSymbolTable
 70
     0
  0
ENDTAB
  0
TABLE
  2
APPID
  5
108
100
AcDbSymbolTable
 70
     3
  0
APPID
  5
10b
100
AcDbSymbolTableRecord
100
AcDbRegAppTableRecord
  2
ACAD
 70
     0
  0
APPID
  5
10e
100
AcDbSymbolTableRecord
100
AcDbRegAppTableRecord
  2
CONTENTTABDATA
 70
     0
  0
APPID
  5
111
100
AcDbSymbolTableRecord
100
AcDbRegAppTableRecord
  2
CONTENTCURRENTTAB
 70
     0
  0
ENDTAB
  0
TABLE
  2
DIMSTYLE
  5
114
330
     0
100
AcDbSymbolTable
 70
     2
100
AcDbDimStyleTable
 70
     1
  0
DIMSTYLE
105
117
100
AcDbSymbolTableRecord
100
AcDbDimStyleTableRecord
  2
STANDARD
 70
     0
  3

  4

  5

  6

  7

 40
1.000000
 41
0.180000
 42
0.062500
 43
0.380000
 44
0.180000
 45
0.000000
 46
0.000000
 47
0.000000
 48
0.000000
140
0.180000
141
0.090000
142
0.000000
143
25.400000
144
1.000000
145
0.000000
146
1.000000
147
0.090000
 71
     0
 72
     0
 73
     1
 74
     1
 75
     0
 76
     0
 77
     0
 78
     0
170
     0
171
     2
172
     0
173
     0
174
     0
175
     0
176
     0
177
     0
178
     0
270
     2
271
     4
272
     4
273
     2
274
     2
340
fc
275
     0
280
     0
281
     0
282
     0
283
     1
284
     0
285
     0
286
     0
287
     3
288
     0
  0
ENDTAB
  0
TABLE
  2
BLOCK_RECORD
  5
11a
100
AcDbSymbolTable
 70
     0
  0
BLOCK_RECORD
  5
11d
100
AcDbSymbolTableRecord
100
AcDbBlockTableRecord
  2
*MODEL_SPACE
  0
BLOCK_RECORD
  5
120
100
AcDbSymbolTableRecord
100
AcDbBlockTableRecord
  2
*PAPER_SPACE
  0
ENDTAB
  0
ENDSEC
  0
SECTION
  2
BLOCKS
  0
BLOCK
  5
123
330
124
100
AcDbEntity
  8
0
100
AcDbBlockBegin
  2
*Model_Space
 70
     0
 10
0.000000
 20
0.000000
 30
0.000000
  3
*Model_Space
  1
 
  0
ENDBLK
  5
126
330
124
100
AcDbEntity
  8
0
100
AcDbBlockEnd
  0
BLOCK
  5
129
330
12a
100
AcDbEntity
 67
     1
  8
0
100
AcDbBlockBegin
  2
*Paper_Space
 70
     0
 10
0.000000
 20
0.000000
 30
0.000000
  3
*Paper_Space
  1
 
  0
ENDBLK
  5
12c
330
12d
100
AcDbEntity
 67
     1
  8
0
100
AcDbBlockEnd
  0
ENDSEC
  0
SECTION
  2
ENTITIES
  0
MTEXT
  5
12f
100
AcDbEntity
  8
0
100
AcDbMText
 10
2.000000
 20
253.000000
 40
2.625000
 41
129.500000
 71
     1
 72
     5
  3
\fＭＳ 明朝|b1|i0|c128|p17;\T1.0200;ＮＩＲＡ６７配管構成\Pピストンで上方に水を押し上げる部分と水を吸い上げる部分の\P２つの部分からなります。\P\P標準で２ｍ４８ｃｍは押し上げ部分が付属しています。\P５ｍ程度吸い込み管を使用し、それ以上、深くなる場合は\P
  1
押し上げ管（ロッド棒含む）を追加していきます。\P\Pすべて、押し上げ管で仕上げ、常時ピストンを水没させると呼び水の必要がなくなります。\P\P\P
 44
0.964470
 73
     1
  7
BIGFONT
  0
LWPOLYLINE
  5
132
100
AcDbEntity
  8
0
100
AcDbPolyline
 90
    30
 70
     0
 43
0.200000
 10
129.600000
 20
241.275000
 10
130.050000
 20
241.350000
 10
130.175000
 20
241.550000
 10
130.350000
 20
241.550000
 10
132.175000
 20
237.300000
 10
133.300000
 20
232.450000
 10
133.700000
 20
232.375000
 10
134.625000
 20
232.450000
 10
135.850000
 20
232.450000
 10
136.750000
 20
233.950000
 10
137.450000
 20
235.950000
 10
137.450000
 20
236.325000
 10
137.550000
 20
236.700000
 10
141.725000
 20
236.400000
 10
141.925000
 20
236.250000
 10
141.875000
 20
235.650000
 10
143.850000
 20
235.675000
 10
143.800000
 20
237.775000
 10
143.550000
 20
238.050000
 10
143.075000
 20
238.125000
 10
140.675000
 20
238.675000
 10
139.450000
 20
238.975000
 10
138.650000
 20
238.925000
 10
137.850000
 20
239.125000
 10
137.350000
 20
239.050000
 10
136.850000
 20
239.925000
 10
136.400000
 20
240.800000
 10
135.300000
 20
242.250000
 10
133.575000
 20
244.075000
 10
133.050000
 20
244.050000
  0
CIRCLE
  5
171
100
AcDbEntity
  8
0
370
    20
100
AcDbCircle
 10
130.725000
 20
244.450000
 40
2.375000
  0
LWPOLYLINE
  5
174
100
AcDbEntity
  8
0
100
AcDbPolyline
 90
     3
 70
     0
 43
0.200000
 10
111.800000
 20
233.350000
 10
111.825000
 20
233.550000
 10
128.350000
 20
243.450000
  0
LWPOLYLINE
  5
17d
100
AcDbEntity
  8
0
100
AcDbPolyline
 90
     4
 70
     0
 43
0.200000
 10
128.350000
 20
243.450000
 10
127.800000
 20
244.350000
 10
127.850000
 20
244.900000
 10
128.275000
 20
244.950000
  0
LWPOLYLINE
  5
188
100
AcDbEntity
  8
0
100
AcDbPolyline
 90
     2
 70
     0
 43
0.200000
 10
128.450000
 20
244.100000
 10
132.150000
 20
246.225000
  0
LWPOLYLINE
  5
18f
100
AcDbEntity
  8
0
100
AcDbPolyline
 90
     2
 70
     0
 43
0.200000
 10
129.425000
 20
242.700000
 10
133.125000
 20
244.675000
  0
LWPOLYLINE
  5
196
100
AcDbEntity
  8
0
100
AcDbPolyline
 90
    11
 70
     0
 43
0.200000
 10
132.025000
 20
246.450000
 10
132.300000
 20
246.625000
 10
133.350000
 20
246.875000
 10
134.800000
 20
247.000000
 10
135.675000
 20
247.000000
 10
135.900000
 20
246.825000
 10
136.225000
 20
246.250000
 10
136.725000
 20
244.825000
 10
137.000000
 20
244.225000
 10
137.300000
 20
243.025000
 10
137.600000
 20
241.450000
  0
SPLINE
  5
1af
100
AcDbEntity
  8
0
370
    20
100
AcDbSpline
210
0.000000
220
0.000000
230
1.000000
 70
     8
 71
     3
 72
    20
 73
    16
 74
     0
 42
0.0000001
 43
0.0000001
 44
0.0000000001
 40
0.000000
 40
0.000000
 40
0.000000
 40
0.000000
 40
1.109617
 40
1.109617
 40
1.109617
 40
2.461699
 40
2.461699
 40
2.461699
 40
3.614142
 40
3.614142
 40
3.614142
 40
4.565457
 40
4.565457
 40
4.565457
 40
4.802628
 40
4.802628
 40
4.802628
 40
4.802628
 10
137.550000
 20
236.700000
 30
0.000000
 10
137.425000
 20
237.050000
 30
0.000000
 10
137.300000
 20
237.400000
 30
0.000000
 10
137.275000
 20
237.775000
 30
0.000000
 10
137.225000
 20
238.225000
 30
0.000000
 10
137.275000
 20
238.675000
 30
0.000000
 10
137.350000
 20
239.125000
 30
0.000000
 10
137.375000
 20
239.500000
 30
0.000000
 10
137.550000
 20
239.875000
 30
0.000000
 10
137.600000
 20
240.250000
 30
0.000000
 10
137.650000
 20
240.575000
 30
0.000000
 10
137.600000
 20
240.875000
 30
0.000000
 10
137.650000
 20
241.200000
 30
0.000000
 10
137.675000
 20
241.300000
 30
0.000000
 10
137.700000
 20
241.125000
 30
0.000000
 10
137.725000
 20
240.975000
 30
0.000000
  0
SPLINE
  5
1b2
100
AcDbEntity
  8
0
370
    20
100
AcDbSpline
210
0.000000
220
0.000000
230
1.000000
 70
     8
 71
     3
 72
    38
 73
    34
 74
     0
 42
0.0000001
 43
0.0000001
 44
0.0000000001
 40
0.000000
 40
0.000000
 40
0.000000
 40
0.000000
 40
0.150000
 40
0.150000
 40
0.150000
 40
2.703062
 40
2.703062
 40
2.703062
 40
5.853955
 40
5.853955
 40
5.853955
 40
6.855204
 40
6.855204
 40
6.855204
 40
7.947220
 40
7.947220
 40
7.947220
 40
8.927335
 40
8.927335
 40
8.927335
 40
9.782467
 40
9.782467
 40
9.782467
 40
10.260091
 40
10.260091
 40
10.260091
 40
11.588859
 40
11.588859
 40
11.588859
 40
13.015832
 40
13.015832
 40
13.015832
 40
18.146621
 40
18.146621
 40
18.146621
 40
18.146621
 10
133.850000
 20
232.975000
 30
0.000000
 10
133.850000
 20
233.025000
 30
0.000000
 10
133.850000
 20
233.050000
 30
0.000000
 10
133.850000
 20
233.125000
 30
0.000000
 10
133.900000
 20
233.975000
 30
0.000000
 10
133.950000
 20
234.825000
 30
0.000000
 10
133.975000
 20
235.675000
 30
0.000000
 10
133.975000
 20
236.750000
 30
0.000000
 10
133.950000
 20
237.775000
 30
0.000000
 10
133.900000
 20
238.825000
 30
0.000000
 10
133.900000
 20
239.150000
 30
0.000000
 10
133.900000
 20
239.475000
 30
0.000000
 10
133.850000
 20
239.825000
 30
0.000000
 10
133.775000
 20
240.200000
 30
0.000000
 10
133.725000
 20
240.575000
 30
0.000000
 10
133.550000
 20
240.875000
 30
0.000000
 10
133.400000
 20
241.175000
 30
0.000000
 10
133.250000
 20
241.625000
 30
0.000000
 10
132.950000
 20
241.650000
 30
0.000000
 10
132.675000
 20
241.650000
 30
0.000000
 10
132.550000
 20
241.225000
 30
0.000000
 10
132.425000
 20
240.975000
 30
0.000000
 10
132.375000
 20
240.825000
 30
0.000000
 10
132.375000
 20
240.675000
 30
0.000000
 10
132.375000
 20
240.500000
 30
0.000000
 10
132.350000
 20
240.075000
 30
0.000000
 10
132.300000
 20
239.625000
 30
0.000000
 10
132.275000
 20
239.175000
 30
0.000000
 10
132.275000
 20
238.725000
 30
0.000000
 10
132.250000
 20
238.225000
 30
0.000000
 10
132.350000
 20
237.750000
 30
0.000000
 10
132.750000
 20
236.075000
 30
0.000000
 10
133.225000
 20
234.425000
 30
0.000000
 10
133.700000
 20
232.800000
 30
0.000000
  0
LWPOLYLINE
  5
1b5
100
AcDbEntity
  8
0
100
AcDbPolyline
 90
     4
 70
     1
 43
0.200000
 10
142.200000
 20
235.650000
 10
143.650000
 20
235.700000
 10
143.675000
 20
235.425000
 10
142.225000
 20
235.375000
  0
LWPOLYLINE
  5
1c0
100
AcDbEntity
  8
0
100
AcDbPolyline
 90
     4
 70
     0
 43
0.200000
 10
137.600000
 20
240.250000
 10
139.350000
 20
240.075000
 10
140.300000
 20
239.850000
 10
143.675000
 20
238.875000
  0
LWPOLYLINE
  5
1cb
100
AcDbEntity
  8
0
100
AcDbPolyline
 90
    28
 70
     0
 43
0.200000
 10
129.325000
 20
199.550000
 10
129.375000
 20
199.575000
 10
132.500000
 20
200.050000
 10
132.725000
 20
200.250000
 10
132.800000
 20
200.750000
 10
132.750000
 20
200.925000
 10
132.325000
 20
201.075000
 10
132.175000
 20
201.350000
 10
132.175000
 20
201.825000
 10
132.375000
 20
202.075000
 10
132.825000
 20
202.375000
 10
133.075000
 20
202.400000
 10
133.225000
 20
203.625000
 10
136.325000
 20
203.675000
 10
136.500000
 20
202.250000
 10
136.975000
 20
202.200000
 10
137.225000
 20
202.025000
 10
137.375000
 20
201.550000
 10
137.225000
 20
201.225000
 10
136.750000
 20
200.875000
 10
136.375000
 20
200.875000
 10
136.450000
 20
200.200000
 10
139.875000
 20
199.350000
 10
139.900000
 20
199.250000
 10
139.775000
 20
199.125000
 10
129.325000
 20
199.250000
 10
129.250000
 20
199.450000
 10
129.375000
 20
199.575000
  0
CIRCLE
  5
206
100
AcDbEntity
  8
0
370
    20
100
AcDbCircle
 10
132.625000
 20
201.550000
 40
0.275000
  0
CIRCLE
  5
209
100
AcDbEntity
  8
0
370
    20
100
AcDbCircle
 10
136.725000
 20
201.625000
 40
0.275000
  0
LWPOLYLINE
  5
20c
100
AcDbEntity
  8
0
100
AcDbPolyline
 90
    21
 70
     0
 43
0.200000
 10
111.875000
 20
233.550000
 10
111.875000
 20
233.550000
 10
112.300000
 20
232.700000
 10
112.425000
 20
232.350000
 10
112.200000
 20
232.200000
 10
111.925000
 20
232.225000
 10
111.275000
 20
231.800000
 10
109.850000
 20
230.800000
 10
108.850000
 20
230.425000
 10
108.275000
 20
230.400000
 10
108.100000
 20
230.650000
 10
108.050000
 20
230.875000
 10
108.000000
 20
231.200000
 10
108.275000
 20
231.475000
 10
109.000000
 20
232.000000
 10
109.975000
 20
232.600000
 10
110.950000
 20
232.950000
 10
111.200000
 20
233.150000
 10
111.400000
 20
233.400000
 10
111.500000
 20
233.525000
 10
111.825000
 20
233.550000
  0
LWPOLYLINE
  5
239
100
AcDbEntity
  8
0
100
AcDbPolyline
 90
     5
 70
     0
 43
0.200000
 10
143.075000
 20
238.125000
 10
143.025000
 20
238.050000
 10
142.600000
 20
237.425000
 10
142.075000
 20
236.675000
 10
141.725000
 20
236.350000
  0
SPLINE
  5
246
100
AcDbEntity
  8
0
370
    20
100
AcDbSpline
210
0.000000
220
0.000000
230
1.000000
 70
     8
 71
     3
 72
    14
 73
    10
 74
     0
 42
0.0000001
 43
0.0000001
 44
0.0000000001
 40
0.000000
 40
0.000000
 40
0.000000
 40
0.000000
 40
0.035355
 40
0.035355
 40
0.035355
 40
4.550400
 40
4.550400
 40
4.550400
 40
7.601322
 40
7.601322
 40
7.601322
 40
7.601322
 10
134.175000
 20
243.325000
 30
0.000000
 10
134.175000
 20
243.300000
 30
0.000000
 10
134.175000
 20
243.300000
 30
0.000000
 10
134.200000
 20
243.300000
 30
0.000000
 10
134.400000
 20
241.800000
 30
0.000000
 10
134.675000
 20
240.325000
 30
0.000000
 10
134.800000
 20
238.825000
 30
0.000000
 10
134.900000
 20
237.800000
 30
0.000000
 10
134.875000
 20
236.800000
 30
0.000000
 10
134.875000
 20
235.775000
 30
0.000000
  0
CIRCLE
  5
249
100
AcDbEntity
  8
0
370
    20
100
AcDbCircle
 10
130.875000
 20
244.550000
 40
0.375000
  0
LINE
  5
24c
100
AcDbEntity
  8
0
370
    20
100
AcDbLine
 10
129.150000
 20
241.800000
 11
129.600000
 21
241.275000
  0
LWPOLYLINE
  5
24f
100
AcDbEntity
  8
0
100
AcDbPolyline
 90
     4
 70
     1
 43
0.200000
 10
133.650000
 20
232.450000
 10
135.900000
 20
232.450000
 10
135.900000
 20
203.675000
 10
133.650000
 20
203.675000
  0
LINE
  5
25a
100
AcDbEntity
  8
0
370
    20
100
AcDbLine
 10
112.300000
 20
232.750000
 11
128.750000
 21
242.350000
  0
LWPOLYLINE
  5
25d
100
AcDbEntity
  8
0
100
AcDbPolyline
 90
     2
 70
     0
 43
0.200000
 10
128.350000
 20
243.450000
 10
129.250000
 20
241.725000
  0
SPLINE
  5
264
100
AcDbEntity
  8
0
370
    20
100
AcDbSpline
210
0.000000
220
0.000000
230
1.000000
 70
     8
 71
     3
 72
    83
 73
    79
 74
     0
 42
0.0000001
 43
0.0000001
 44
0.0000000001
 40
0.000000
 40
0.000000
 40
0.000000
 40
0.000000
 40
0.025000
 40
0.025000
 40
0.025000
 40
0.290754
 40
0.290754
 40
0.290754
 40
0.442823
 40
0.442823
 40
0.442823
 40
0.700213
 40
0.700213
 40
0.700213
 40
0.841635
 40
0.841635
 40
0.841635
 40
1.056693
 40
1.056693
 40
1.056693
 40
1.251949
 40
1.251949
 40
1.251949
 40
1.482438
 40
1.482438
 40
1.482438
 40
1.873750
 40
1.873750
 40
1.873750
 40
2.149884
 40
2.149884
 40
2.149884
 40
2.497195
 40
2.497195
 40
2.497195
 40
2.866315
 40
2.866315
 40
2.866315
 40
3.067872
 40
3.067872
 40
3.067872
 40
3.439524
 40
3.439524
 40
3.439524
 40
3.700531
 40
3.700531
 40
3.700531
 40
4.302611
 40
4.302611
 40
4.302611
 40
4.452611
 40
4.452611
 40
4.452611
 40
4.721869
 40
4.721869
 40
4.721869
 40
5.006913
 40
5.006913
 40
5.006913
 40
5.378565
 40
5.378565
 40
5.378565
 40
5.713975
 40
5.713975
 40
5.713975
 40
6.150581
 40
6.150581
 40
6.150581
 40
6.720669
 40
6.720669
 40
6.720669
 40
6.902672
 40
6.902672
 40
6.902672
 40
7.249983
 40
7.249983
 40
7.249983
 40
7.771998
 40
7.771998
 40
7.771998
 40
7.771998
 10
137.650000
 20
241.025000
 30
0.000000
 10
137.675000
 20
241.025000
 30
0.000000
 10
137.675000
 20
241.025000
 30
0.000000
 10
137.675000
 20
241.025000
 30
0.000000
 10
137.725000
 20
240.950000
 30
0.000000
 10
137.750000
 20
240.850000
 30
0.000000
 10
137.850000
 20
240.825000
 30
0.000000
 10
137.875000
 20
240.825000
 30
0.000000
 10
137.950000
 20
240.825000
 30
0.000000
 10
138.000000
 20
240.850000
 30
0.000000
 10
138.075000
 20
240.875000
 30
0.000000
 10
138.150000
 20
240.950000
 30
0.000000
 10
138.225000
 20
240.975000
 30
0.000000
 10
138.250000
 20
240.975000
 30
0.000000
 10
138.300000
 20
240.925000
 30
0.000000
 10
138.325000
 20
240.875000
 30
0.000000
 10
138.350000
 20
240.825000
 30
0.000000
 10
138.400000
 20
240.725000
 30
0.000000
 10
138.450000
 20
240.700000
 30
0.000000
 10
138.500000
 20
240.625000
 30
0.000000
 10
138.550000
 20
240.575000
 30
0.000000
 10
138.600000
 20
240.575000
 30
0.000000
 10
138.675000
 20
240.575000
 30
0.000000
 10
138.750000
 20
240.600000
 30
0.000000
 10
138.825000
 20
240.625000
 30
0.000000
 10
138.950000
 20
240.700000
 30
0.000000
 10
139.050000
 20
240.775000
 30
0.000000
 10
139.175000
 20
240.800000
 30
0.000000
 10
139.250000
 20
240.825000
 30
0.000000
 10
139.350000
 20
240.825000
 30
0.000000
 10
139.450000
 20
240.775000
 30
0.000000
 10
139.525000
 20
240.700000
 30
0.000000
 10
139.550000
 20
240.575000
 30
0.000000
 10
139.625000
 20
240.475000
 30
0.000000
 10
139.700000
 20
240.375000
 30
0.000000
 10
139.825000
 20
240.325000
 30
0.000000
 10
139.950000
 20
240.300000
 30
0.000000
 10
140.025000
 20
240.275000
 30
0.000000
 10
140.100000
 20
240.300000
 30
0.000000
 10
140.150000
 20
240.325000
 30
0.000000
 10
140.275000
 20
240.325000
 30
0.000000
 10
140.425000
 20
240.400000
 30
0.000000
 10
140.500000
 20
240.450000
 30
0.000000
 10
140.625000
 20
240.450000
 30
0.000000
 10
140.675000
 20
240.450000
 30
0.000000
 10
140.750000
 20
240.375000
 30
0.000000
 10
140.925000
 20
240.275000
 30
0.000000
 10
141.025000
 20
240.075000
 30
0.000000
 10
141.200000
 20
239.975000
 30
0.000000
 10
141.225000
 20
239.950000
 30
0.000000
 10
141.300000
 20
239.950000
 30
0.000000
 10
141.350000
 20
239.975000
 30
0.000000
 10
141.450000
 20
239.975000
 30
0.000000
 10
141.525000
 20
240.050000
 30
0.000000
 10
141.600000
 20
240.075000
 30
0.000000
 10
141.725000
 20
240.075000
 30
0.000000
 10
141.800000
 20
240.075000
 30
0.000000
 10
141.875000
 20
240.000000
 30
0.000000
 10
142.000000
 20
239.975000
 30
0.000000
 10
142.075000
 20
239.850000
 30
0.000000
 10
142.150000
 20
239.750000
 30
0.000000
 10
142.225000
 20
239.650000
 30
0.000000
 10
142.200000
 20
239.500000
 30
0.000000
 10
142.300000
 20
239.450000
 30
0.000000
 10
142.425000
 20
239.350000
 30
0.000000
 10
142.575000
 20
239.350000
 30
0.000000
 10
142.725000
 20
239.350000
 30
0.000000
 10
142.900000
 20
239.425000
 30
0.000000
 10
143.000000
 20
239.600000
 30
0.000000
 10
143.175000
 20
239.700000
 30
0.000000
 10
143.225000
 20
239.725000
 30
0.000000
 10
143.300000
 20
239.700000
 30
0.000000
 10
143.350000
 20
239.650000
 30
0.000000
 10
143.425000
 20
239.575000
 30
0.000000
 10
143.500000
 20
239.475000
 30
0.000000
 10
143.525000
 20
239.350000
 30
0.000000
 10
143.600000
 20
239.225000
 30
0.000000
 10
143.650000
 20
239.025000
 30
0.000000
 10
143.675000
 20
238.850000
 30
0.000000
  0
LINE
  5
267
100
AcDbEntity
  8
0
370
    20
100
AcDbLine
 10
137.600000
 20
241.450000
 11
137.650000
 21
241.225000
  0
LWPOLYLINE
  5
26a
100
AcDbEntity
  8
0
100
AcDbPolyline
 90
     2
 70
     0
 43
0.200000
 10
143.850000
 20
237.625000
 10
144.000000
 20
238.700000
  0
LWPOLYLINE
  5
271
100
AcDbEntity
  8
0
100
AcDbPolyline
 90
     2
 70
     0
 43
0.200000
 10
144.000000
 20
238.700000
 10
143.675000
 20
238.875000
  0
LWPOLYLINE
  5
278
100
AcDbEntity
  8
0
100
AcDbPolyline
 90
     4
 70
     1
 43
0.200000
 10
133.125000
 20
150.425000
 10
133.125000
 20
152.800000
 10
136.025000
 20
152.800000
 10
136.025000
 20
150.425000
  0
LWPOLYLINE
  5
283
100
AcDbEntity
  8
0
100
AcDbPolyline
 90
     4
 70
     1
 43
0.200000
 10
133.375000
 20
152.800000
 10
135.750000
 20
152.800000
 10
135.750000
 20
105.425000
 10
133.375000
 20
105.425000
  0
LWPOLYLINE
  5
28e
100
AcDbEntity
  8
0
100
AcDbPolyline
 90
     2
 70
     0
 43
0.200000
 10
133.350000
 20
105.575000
 10
135.800000
 20
105.700000
  0
LWPOLYLINE
  5
295
100
AcDbEntity
  8
0
100
AcDbPolyline
 90
     2
 70
     0
 43
0.200000
 10
133.350000
 20
105.725000
 10
135.800000
 20
105.875000
  0
LWPOLYLINE
  5
29c
100
AcDbEntity
  8
0
100
AcDbPolyline
 90
     2
 70
     0
 43
0.200000
 10
133.425000
 20
105.925000
 10
135.675000
 20
106.050000
  0
LWPOLYLINE
  5
2a3
100
AcDbEntity
  8
0
100
AcDbPolyline
 90
     2
 70
     0
 43
0.200000
 10
133.425000
 20
106.050000
 10
135.675000
 20
106.175000
  0
CIRCLE
  5
2aa
100
AcDbEntity
  8
0
370
    20
100
AcDbCircle
 10
134.225000
 20
108.500000
 40
0.225000
  0
LWPOLYLINE
  5
2ad
100
AcDbEntity
  8
0
100
AcDbPolyline
 90
     4
 70
     1
 43
0.200000
 10
132.375000
 20
106.300000
 10
136.625000
 20
106.300000
 10
136.625000
 20
85.525000
 10
132.375000
 20
85.525000
  0
SPLINE
  5
2b8
100
AcDbEntity
  8
0
370
    20
100
AcDbSpline
210
0.000000
220
0.000000
230
1.000000
 70
     9
 71
     3
 72
    23
 73
    19
 74
     0
 42
0.0000001
 43
0.0000001
 44
0.0000000001
 40
0.000000
 40
0.000000
 40
0.000000
 40
0.000000
 40
3.625000
 40
3.625000
 40
3.625000
 40
4.900980
 40
4.900980
 40
4.900980
 40
5.749508
 40
5.749508
 40
5.749508
 40
8.074508
 40
8.074508
 40
8.074508
 40
8.976243
 40
8.976243
 40
8.976243
 40
10.226243
 40
10.226243
 40
10.226243
 40
10.226243
 10
132.750000
 20
91.150000
 30
0.000000
 10
132.750000
 20
91.150000
 30
0.000000
 10
136.375000
 20
91.150000
 30
0.000000
 10
136.375000
 20
91.150000
 30
0.000000
 10
136.375000
 20
91.150000
 30
0.000000
 10
136.325000
 20
89.875000
 30
0.000000
 10
136.325000
 20
89.875000
 30
0.000000
 10
136.325000
 20
89.525000
 30
0.000000
 10
136.075000
 20
89.275000
 30
0.000000
 10
135.725000
 20
89.275000
 30
0.000000
 10
135.725000
 20
89.275000
 30
0.000000
 10
133.400000
 20
89.275000
 30
0.000000
 10
133.400000
 20
89.275000
 30
0.000000
 10
133.050000
 20
89.275000
 30
0.000000
 10
132.750000
 20
89.550000
 30
0.000000
 10
132.750000
 20
89.900000
 30
0.000000
 10
132.750000
 20
89.900000
 30
0.000000
 10
132.750000
 20
91.150000
 30
0.000000
 10
132.750000
 20
91.150000
 30
0.000000
  0
LWPOLYLINE
  5
2bb
100
AcDbEntity
  8
0
100
AcDbPolyline
 90
     4
 70
     1
 43
0.200000
 10
134.450000
 20
95.525000
 10
134.875000
 20
95.525000
 10
134.875000
 20
91.200000
 10
134.450000
 20
91.200000
  0
LWPOLYLINE
  5
2c6
100
AcDbEntity
  8
0
100
AcDbPolyline
 90
     4
 70
     1
 43
0.200000
 10
134.150000
 20
97.350000
 10
135.050000
 20
97.350000
 10
135.050000
 20
95.525000
 10
134.150000
 20
95.525000
  0
LWPOLYLINE
  5
2d1
100
AcDbEntity
  8
0
  6
DOT
 62
     7
100
AcDbPolyline
 90
     4
 70
     1
 43
0.200000
 10
132.700000
 20
104.875000
 10
136.300000
 20
104.875000
 10
136.300000
 20
86.225000
 10
132.700000
 20
86.225000
  0
LWPOLYLINE
  5
2dc
100
AcDbEntity
  8
0
100
AcDbPolyline
 90
     4
 70
     1
 43
0.200000
 10
133.225000
 20
106.175000
 10
135.675000
 20
106.175000
 10
135.675000
 20
104.875000
 10
133.225000
 20
104.875000
  0
LWPOLYLINE
  5
2e7
100
AcDbEntity
  8
0
100
AcDbPolyline
 90
     4
 70
     1
 43
0.200000
 10
133.600000
 20
86.325000
 10
135.300000
 20
86.325000
 10
135.300000
 20
85.575000
 10
133.600000
 20
85.575000
  0
LWPOLYLINE
  5
2f2
100
AcDbEntity
  8
0
100
AcDbPolyline
 90
     2
 70
     0
 43
0.200000
 10
133.525000
 20
85.575000
 10
135.275000
 20
85.775000
  0
LWPOLYLINE
  5
2f9
100
AcDbEntity
  8
0
100
AcDbPolyline
 90
     2
 70
     0
 43
0.200000
 10
133.650000
 20
86.000000
 10
135.200000
 20
86.150000
  0
LWPOLYLINE
  5
300
100
AcDbEntity
  8
0
100
AcDbPolyline
 90
     3
 70
     0
 43
0.200000
 10
133.575000
 20
85.775000
 10
135.275000
 20
85.950000
 10
135.225000
 20
86.025000
  0
SPLINE
  5
309
100
AcDbEntity
  8
0
370
    20
100
AcDbSpline
210
0.000000
220
0.000000
230
1.000000
 70
     9
 71
     3
 72
    23
 73
    19
 74
     0
 42
0.0000001
 43
0.0000001
 44
0.0000000001
 40
0.000000
 40
0.000000
 40
0.000000
 40
0.000000
 40
0.583631
 40
0.583631
 40
0.583631
 40
2.259377
 40
2.259377
 40
2.259377
 40
2.774765
 40
2.774765
 40
2.774765
 40
3.249765
 40
3.249765
 40
3.249765
 40
5.649765
 40
5.649765
 40
5.649765
 40
6.149765
 40
6.149765
 40
6.149765
 40
6.149765
 10
133.325000
 20
86.875000
 30
0.000000
 10
133.325000
 20
87.100000
 30
0.000000
 10
133.500000
 20
87.300000
 30
0.000000
 10
133.725000
 20
87.300000
 30
0.000000
 10
133.725000
 20
87.300000
 30
0.000000
 10
135.400000
 20
87.250000
 30
0.000000
 10
135.400000
 20
87.250000
 30
0.000000
 10
135.550000
 20
87.250000
 30
0.000000
 10
135.725000
 20
87.025000
 30
0.000000
 10
135.725000
 20
86.850000
 30
0.000000
 10
135.725000
 20
86.850000
 30
0.000000
 10
135.725000
 20
86.375000
 30
0.000000
 10
135.725000
 20
86.375000
 30
0.000000
 10
135.725000
 20
86.375000
 30
0.000000
 10
133.325000
 20
86.375000
 30
0.000000
 10
133.325000
 20
86.375000
 30
0.000000
 10
133.325000
 20
86.375000
 30
0.000000
 10
133.325000
 20
86.875000
 30
0.000000
 10
133.325000
 20
86.875000
 30
0.000000
  0
LWPOLYLINE
  5
30c
100
AcDbEntity
  8
0
100
AcDbPolyline
 90
     4
 70
     0
 43
0.200000
 10
134.825000
 20
143.350000
 10
134.825000
 20
96.675000
 10
134.350000
 20
96.675000
 10
134.350000
 20
143.350000
  0
LINE
  5
317
100
AcDbEntity
  8
0
370
    20
100
AcDbLine
 10
134.350000
 20
145.250000
 11
134.825000
 21
145.250000
  0
LWPOLYLINE
  5
31a
100
AcDbEntity
  8
0
100
AcDbPolyline
 90
     4
 70
     1
 43
0.200000
 10
134.125000
 20
145.250000
 10
135.050000
 20
145.250000
 10
135.050000
 20
143.350000
 10
134.125000
 20
143.350000
  0
LWPOLYLINE
  5
325
100
AcDbEntity
  8
0
100
AcDbPolyline
 90
     3
 70
     0
 43
0.200000
 10
134.350000
 20
96.800000
 10
134.800000
 20
96.825000
 10
134.800000
 20
96.850000
  0
LWPOLYLINE
  5
32e
100
AcDbEntity
  8
0
100
AcDbPolyline
 90
     2
 70
     0
 43
0.200000
 10
134.375000
 20
96.925000
 10
134.800000
 20
96.975000
  0
LWPOLYLINE
  5
335
100
AcDbEntity
  8
0
100
AcDbPolyline
 90
     2
 70
     0
 43
0.200000
 10
134.375000
 20
97.075000
 10
134.825000
 20
97.100000
  0
LWPOLYLINE
  5
33c
100
AcDbEntity
  8
0
100
AcDbPolyline
 90
     2
 70
     0
 43
0.200000
 10
134.400000
 20
97.225000
 10
134.800000
 20
97.250000
  0
LWPOLYLINE
  5
343
100
AcDbEntity
  8
0
100
AcDbPolyline
 90
     2
 70
     0
 43
0.200000
 10
134.375000
 20
97.350000
 10
134.875000
 20
97.400000
  0
LWPOLYLINE
  5
34a
100
AcDbEntity
  8
0
100
AcDbPolyline
 90
     4
 70
     1
 43
0.200000
 10
134.125000
 20
97.675000
 10
135.125000
 20
97.675000
 10
135.125000
 20
97.375000
 10
134.125000
 20
97.375000
  0
LWPOLYLINE
  5
355
100
AcDbEntity
  8
0
100
AcDbPolyline
 90
     4
 70
     1
 43
0.200000
 10
134.075000
 20
136.500000
 10
135.175000
 20
136.500000
 10
135.175000
 20
135.550000
 10
134.075000
 20
135.550000
  0
LWPOLYLINE
  5
360
100
AcDbEntity
  8
0
100
AcDbPolyline
 90
     4
 70
     1
 43
0.200000
 10
133.225000
 20
196.700000
 10
133.225000
 20
199.075000
 10
136.175000
 20
199.075000
 10
136.175000
 20
196.700000
  0
LWPOLYLINE
  5
36b
100
AcDbEntity
  8
0
100
AcDbPolyline
 90
     4
 70
     1
 43
0.200000
 10
133.525000
 20
199.075000
 10
135.900000
 20
199.075000
 10
135.900000
 20
151.700000
 10
133.525000
 20
151.700000
  0
LWPOLYLINE
  5
376
100
AcDbEntity
  8
0
100
AcDbPolyline
 90
     2
 70
     0
 43
0.200000
 10
133.500000
 20
151.850000
 10
135.950000
 20
151.975000
  0
LWPOLYLINE
  5
37d
100
AcDbEntity
  8
0
100
AcDbPolyline
 90
     2
 70
     0
 43
0.200000
 10
133.500000
 20
152.025000
 10
135.950000
 20
152.175000
  0
LWPOLYLINE
  5
384
100
AcDbEntity
  8
0
100
AcDbPolyline
 90
     2
 70
     0
 43
0.200000
 10
133.575000
 20
152.200000
 10
135.825000
 20
152.325000
  0
LWPOLYLINE
  5
38b
100
AcDbEntity
  8
0
100
AcDbPolyline
 90
     2
 70
     0
 43
0.200000
 10
133.575000
 20
152.325000
 10
135.825000
 20
152.475000
  0
SPLINE
  5
392
100
AcDbEntity
  8
0
370
    20
100
AcDbSpline
210
0.000000
220
0.000000
230
1.000000
 70
     8
 71
     3
 72
    14
 73
    10
 74
     0
 42
0.0000001
 43
0.0000001
 44
0.0000000001
 40
0.000000
 40
0.000000
 40
0.000000
 40
0.000000
 40
0.950000
 40
0.950000
 40
0.950000
 40
13.836475
 40
13.836475
 40
13.836475
 40
23.935114
 40
23.935114
 40
23.935114
 40
23.935114
 10
127.900000
 20
138.975000
 30
0.000000
 10
127.775000
 20
139.350000
 30
0.000000
 10
127.650000
 20
139.725000
 30
0.000000
 10
127.900000
 20
139.925000
 30
0.000000
 10
131.225000
 20
142.650000
 30
0.000000
 10
135.125000
 20
144.650000
 30
0.000000
 10
138.325000
 20
147.500000
 30
0.000000
 10
140.825000
 20
149.725000
 30
0.000000
 10
142.900000
 20
152.400000
 30
0.000000
 10
144.975000
 20
155.100000
 30
0.000000
  0
LWPOLYLINE
  5
395
100
AcDbEntity
  8
0
100
AcDbPolyline
 90
     4
 70
     1
 43
0.200000
 10
133.275000
 20
85.450000
 10
135.700000
 20
85.450000
 10
135.700000
 20
82.300000
 10
133.275000
 20
82.300000
  0
LWPOLYLINE
  5
3a0
100
AcDbEntity
  8
0
100
AcDbPolyline
 90
     4
 70
     0
 43
0.200000
 10
135.450000
 20
63.475000
 10
135.450000
 20
33.000000
 10
133.475000
 20
33.000000
 10
133.475000
 20
62.825000
  0
LWPOLYLINE
  5
3ab
100
AcDbEntity
  8
0
100
AcDbPolyline
 90
     4
 70
     0
 43
0.200000
 10
133.475000
 20
66.825000
 10
133.475000
 20
82.275000
 10
135.450000
 20
82.275000
 10
135.450000
 20
67.475000
  0
LWPOLYLINE
  5
3b6
100
AcDbEntity
  8
0
100
AcDbPolyline
 90
     4
 70
     1
 43
0.200000
 10
132.900000
 20
28.975000
 10
136.450000
 20
28.975000
 10
136.450000
 20
28.225000
 10
132.900000
 20
28.225000
  0
LWPOLYLINE
  5
3c1
100
AcDbEntity
  8
0
100
AcDbPolyline
 90
     4
 70
     1
 43
0.200000
 10
132.975000
 20
28.225000
 10
136.375000
 20
28.225000
 10
136.375000
 20
27.475000
 10
132.975000
 20
27.475000
  0
LWPOLYLINE
  5
3cc
100
AcDbEntity
  8
0
100
AcDbPolyline
 90
     4
 70
     1
 43
0.200000
 10
133.725000
 20
27.425000
 10
135.625000
 20
27.425000
 10
135.625000
 20
23.250000
 10
133.725000
 20
23.250000
  0
LWPOLYLINE
  5
3d7
100
AcDbEntity
  8
0
100
AcDbPolyline
 90
     4
 70
     0
 43
0.200000
 10
132.975000
 20
27.475000
 10
133.725000
 20
23.250000
 10
135.625000
 20
23.250000
 10
136.375000
 20
27.475000
  0
LWPOLYLINE
  5
3e2
100
AcDbEntity
  8
0
100
AcDbPolyline
 90
     4
 70
     1
 43
0.200000
 10
134.450000
 20
27.375000
 10
134.875000
 20
27.375000
 10
134.875000
 20
23.200000
 10
134.450000
 20
23.200000
  0
LWPOLYLINE
  5
3ed
100
AcDbEntity
  8
0
100
AcDbPolyline
 90
     4
 70
     1
 43
0.200000
 10
133.575000
 20
33.000000
 10
135.825000
 20
33.000000
 10
135.825000
 20
29.050000
 10
133.575000
 20
29.050000
  0
SPLINE
  5
3f8
100
AcDbEntity
  8
0
370
    20
100
AcDbSpline
210
0.000000
220
0.000000
230
1.000000
 70
     8
 71
     3
 72
     8
 73
     4
 74
     0
 42
0.0000001
 43
0.0000001
 44
0.0000000001
 40
0.000000
 40
0.000000
 40
0.000000
 40
0.000000
 40
13.265792
 40
13.265792
 40
13.265792
 40
13.265792
 10
128.000000
 20
65.000000
 30
0.000000
 10
132.200000
 20
66.400000
 30
0.000000
 10
136.375000
 20
67.825000
 30
0.000000
 10
140.575000
 20
69.225000
 30
0.000000
  0
SPLINE
  5
3fb
100
AcDbEntity
  8
0
370
    20
100
AcDbSpline
210
0.000000
220
0.000000
230
1.000000
 70
     8
 71
     3
 72
     8
 73
     4
 74
     0
 42
0.0000001
 43
0.0000001
 44
0.0000000001
 40
0.000000
 40
0.000000
 40
0.000000
 40
0.000000
 40
7.850358
 40
7.850358
 40
7.850358
 40
7.850358
 10
128.000000
 20
61.000000
 30
0.000000
 10
130.475000
 20
61.825000
 30
0.000000
 10
132.975000
 20
62.650000
 30
0.000000
 10
135.450000
 20
63.475000
 30
0.000000
  0
SPLINE
  5
3fe
100
AcDbEntity
  8
0
370
    20
100
AcDbSpline
210
0.000000
220
0.000000
230
1.000000
 70
     8
 71
     3
 72
     8
 73
     4
 74
     0
 42
0.0000001
 43
0.0000001
 44
0.0000000001
 40
0.000000
 40
0.000000
 40
0.000000
 40
0.000000
 40
5.677698
 40
5.677698
 40
5.677698
 40
5.677698
 10
135.450000
 20
63.475000
 30
0.000000
 10
137.275000
 20
64.025000
 30
0.000000
 10
139.050000
 20
64.600000
 30
0.000000
 10
140.875000
 20
65.150000
 30
0.000000
  0
LWPOLYLINE
  5
401
100
AcDbEntity
  8
0
100
AcDbPolyline
 90
     4
 70
     0
 43
0.200000
 10
145.025000
 20
199.275000
 10
156.000000
 20
199.275000
 10
156.000000
 20
85.000000
 10
147.925000
 20
85.000000
  0
MTEXT
  5
40c
100
AcDbEntity
  8
0
100
AcDbMText
 10
160.000000
 20
153.000000
 40
3.168750
 41
25.350000
 71
     1
 72
     5
  1
\fＭＳ 明朝|b1|i0|c128|p17;\T1.0200;押し上げ部分\P\fTimes New Roman|b1|i0|c0|p18;2m48cm\fＭＳ 明朝|b1|i0|c128|p17;（標準付属）\P最大で\fTimes New Roman|b1|i0|c0|p18;20m\fＭＳ 明朝|b1|i0|c128|p17;まで\P\P専用ポリエチレンパイプ・ステンレス製ロッド
 44
0.966489
 73
     1
  7
BIGFONT
  0
LWPOLYLINE
  5
40f
100
AcDbEntity
  8
0
100
AcDbPolyline
 90
     4
 70
     0
 43
0.200000
 10
144.000000
 20
23.000000
 10
154.000000
 20
23.000000
 10
154.000000
 20
85.000000
 10
142.000000
 20
85.000000
  0
MTEXT
  5
41a
100
AcDbEntity
  8
0
100
AcDbMText
 10
160.425000
 20
63.000000
 40
3.168750
 41
44.362500
 71
     1
 72
     5
  1
\fＭＳ 明朝|b1|i0|c128|p17;\T1.0200;吸い上げ部分\P最大で７ｍまで\P５ｍ程度が\P望ましい
 44
0.966489
 73
     1
  7
BIGFONT
  0
LINE
  5
41d
100
AcDbEntity
  8
0
370
    20
100
AcDbLine
 10
134.675000
 20
23.250000
 11
104.000000
 21
23.250000
  0
LWPOLYLINE
  5
420
100
AcDbEntity
  8
0
100
AcDbPolyline
 90
     3
 70
     0
 43
0.200000
 10
131.900000
 20
22.125000
 10
134.675000
 20
23.250000
 10
131.900000
 20
24.400000
  0
MTEXT
  5
429
100
AcDbEntity
  8
0
100
AcDbMText
 10
80.000000
 20
27.000000
 40
3.168750
 41
25.350000
 71
     1
 72
     5
  1
\fＭＳ 明朝|b1|i0|c128|p17;\T1.0200;パイプ先端
 44
0.966489
 73
     1
  7
BIGFONT
  0
MTEXT
  5
42c
100
AcDbEntity
  8
0
100
AcDbMText
 10
100.000000
 20
39.000000
 40
3.168750
 41
29.575000
 71
     1
 72
     5
  1
\fＭＳ 明朝|b1|i0|c128|p17;\T1.0200;フートバルブ
 44
0.966489
 73
     1
  7
BIGFONT
  0
LINE
  5
42f
100
AcDbEntity
  8
0
370
    20
100
AcDbLine
 10
128.000000
 20
25.000000
 11
118.975000
 21
32.200000
  0
LWPOLYLINE
  5
432
100
AcDbEntity
  8
0
100
AcDbPolyline
 90
     3
 70
     0
 43
0.200000
 10
125.100000
 20
25.850000
 10
128.000000
 20
25.000000
 10
126.525000
 20
27.650000
  0
LINE
  5
43b
100
AcDbEntity
  8
0
370
    20
100
AcDbLine
 10
134.000000
 20
108.500000
 11
110.000000
 21
108.500000
  0
LWPOLYLINE
  5
43e
100
AcDbEntity
  8
0
100
AcDbPolyline
 90
     3
 70
     0
 43
0.200000
 10
131.225000
 20
107.375000
 10
134.000000
 20
108.500000
 10
131.225000
 20
109.650000
  0
MTEXT
  5
447
100
AcDbEntity
  8
0
100
AcDbMText
 10
59.075000
 20
115.000000
 40
3.168750
 41
54.925000
 71
     1
 72
     5
  1
\fＭＳ 明朝|b1|i0|c128|p17;\T1.0200;水落穴（ウィープホール）\P凍結防止のため水をこの水位まで自然に落とす穴です。
 44
0.966489
 73
     1
  7
BIGFONT
  0
LINE
  5
44a
100
AcDbEntity
  8
0
370
    20
100
AcDbLine
 10
134.075000
 20
135.550000
 11
106.000000
 21
135.550000
  0
LWPOLYLINE
  5
44d
100
AcDbEntity
  8
0
100
AcDbPolyline
 90
     3
 70
     0
 43
0.200000
 10
131.300000
 20
134.425000
 10
134.075000
 20
135.550000
 10
131.300000
 20
136.700000
  0
MTEXT
  5
456
100
AcDbEntity
  8
0
100
AcDbMText
 10
88.000000
 20
139.000000
 40
3.168750
 41
25.350000
 71
     1
 72
     5
  1
\fＭＳ 明朝|b1|i0|c128|p17;\T1.0200;ロッド棒
 44
0.966489
 73
     1
  7
BIGFONT
  0
LWPOLYLINE
  5
459
100
AcDbEntity
  8
0
  6
DOT
 62
     7
100
AcDbPolyline
 90
     4
 70
     1
 43
0.200000
 10
131.050000
 20
199.000000
 10
138.000000
 20
199.000000
 10
138.000000
 20
11.975000
 10
131.050000
 20
11.975000
  0
LINE
  5
464
100
AcDbEntity
  8
0
370
    20
100
AcDbLine
 10
130.000000
 20
169.000000
 11
106.900000
 21
169.000000
  0
LWPOLYLINE
  5
467
100
AcDbEntity
  8
0
100
AcDbPolyline
 90
     3
 70
     0
 43
0.200000
 10
127.225000
 20
167.875000
 10
130.000000
 20
169.000000
 10
127.225000
 20
170.150000
  0
MTEXT
  5
470
100
AcDbEntity
  8
0
100
AcDbMText
 10
78.000000
 20
179.000000
 40
3.168750
 41
50.700000
 71
     1
 72
     5
  1
\fＭＳ 明朝|b1|i0|c128|p17;\T1.0200;井戸ケーシング\P内径Φ\fTimes New Roman|b1|i0|c0|p18;100\fＭＳ 明朝|b1|i0|c128|p17;以上
 44
0.966489
 73
     1
  7
BIGFONT
  0
LWPOLYLINE
  5
473
100
AcDbEntity
  8
0
100
AcDbPolyline
 90
     4
 70
     0
 43
0.400000
 10
148.000000
 20
227.000000
 10
158.000000
 20
227.000000
 10
158.000000
 20
207.000000
 10
146.675000
 20
207.000000
  0
MTEXT
  5
47e
100
AcDbEntity
  8
0
100
AcDbMText
 10
158.000000
 20
219.000000
 40
3.168750
 41
29.575000
 71
     1
 72
     5
  1
\fＭＳ 明朝|b0|i0|c128|p17;\T1.0200;高さ調整可能
 44
0.966489
 73
     1
  7
BIGFONT
  0
ENDSEC
  0
SECTION
  2
OBJECTS
  0
DICTIONARY
  5
489
100
AcDbDictionary
281
     1
  3
ACAD_COLOR
350
48a
  3
ACAD_GROUP
350
48b
  3
ACAD_LAYOUT
350
48c
  3
ACAD_MATERIAL
350
48d
  3
ACAD_MLINESTYLE
350
48e
  3
CONTENTDICTIONARY
350
494
  0
DICTIONARY
  5
48a
102
{ACAD_REACTORS
330
489
102
}
330
489
100
AcDbDictionary
281
     1
  0
DICTIONARY
  5
48b
102
{ACAD_REACTORS
330
489
102
}
330
489
100
AcDbDictionary
281
     1
  3
Layout1
350
495
  3
Layout2
350
496
  3
Model
350
4d9
  0
DICTIONARY
  5
48c
102
{ACAD_REACTORS
330
489
102
}
330
489
100
AcDbDictionary
281
     1
  0
DICTIONARY
  5
48d
102
{ACAD_REACTORS
330
489
102
}
330
489
100
AcDbDictionary
281
     1
  0
DICTIONARY
  5
48e
102
{ACAD_REACTORS
330
489
102
}
330
489
100
AcDbDictionary
281
     1
  3
Standard
350
497
  0
DICTIONARY
  5
48f
102
{ACAD_REACTORS
330
489
102
}
330
489
100
AcDbDictionary
281
     1
  0
ACDBDICTIONARYWDFLT
  5
490
102
{ACAD_REACTORS
330
489
102
}
330
489
100
AcDbDictionary
281
     1
  3
Normal
350
4da
100
AcDbDictionaryWithDefault
340
4da
  0
DICTIONARY
  5
491
102
{ACAD_REACTORS
330
489
102
}
330
489
100
AcDbDictionary
281
     1
  3
Standard
350
4db
  0
DICTIONARY
  5
492
102
{ACAD_REACTORS
330
489
102
}
330
489
100
AcDbDictionary
281
     1
  3
CEPSNTYPE
350
499
  3
FINGERPRINTGUID
350
49a
  3
HYPERLINKBASE
350
49b
  3
INSUNITS
350
49c
  3
LAYOUTDICT
350
49d
  3
LWETCUNION
350
49e
  3
PLOTSETDICT
350
49f
  3
PLOTSTYLNAMDICT
350
4a0
  3
PSVPSCALE
350
4a1
  3
PUCSBASE
350
4a2
  3
PUCSORGBACK
350
4a3
  3
PUCSORGBOTTOM
350
4a4
  3
PUCSORGFRONT
350
4a5
  3
PUCSORGLEFT
350
4a6
  3
PUCSORGRIGHT
350
4a7
  3
PUCSORGTOP
350
4a8
  3
PUCSORTHOREF
350
4a9
  3
PUCSORTHOVIEW
350
4aa
  3
STYLESHEET
350
4ab
  3
TSTACKALIGN
350
4ac
  3
TSTACKSIZE
350
4ad
  3
UCSBASE
350
4ae
  3
UCSORGBACK
350
4af
  3
UCSORGBOTTOM
350
4b0
  3
UCSORGFRONT
350
4b1
  3
UCSORGLEFT
350
4b2
  3
UCSORGRIGHT
350
4b3
  3
UCSORGTOP
350
4b4
  3
UCSORTHOREF
350
4b5
  3
UCSORTHOVIEW
350
4b6
  3
VERSIONGUID
350
4b7
  0
DICTIONARY
  5
493
102
{ACAD_REACTORS
330
489
102
}
330
489
100
AcDbDictionary
281
     1
  3
CTABLESTYLE
350
4b8
  3
DIMASSOC
350
4b9
  3
HIDETEXT
350
4ba
  3
PROJECTNAME
350
4bb
  0
LAYOUT
  5
494
102
{ACAD_XDICTIONARY
360
79f
102
}
102
{ACAD_REACTORS
330
48a
102
}
330
48a
100
AcDbPlotSettings
  1

  2

  4

  6

 40
0.000000
 41
0.000000
 42
0.000000
 43
0.000000
 44
0.000000
 45
0.000000
 46
0.000000
 47
0.000000
 48
0.000000
 49
0.000000
140
0.000000
141
0.000000
142
1.000000
143
1.000000
 70
   688
 72
     0
 73
     0
 74
     5
  7

 75
    16
147
1.000000
148
0.000000
149
0.000000
100
AcDbLayout
  1
Layout1
 70
     1
 71
     1
 10
0.000000
 20
0.000000
 11
190.000000
 21
257.000000
 12
0.000000
 22
0.000000
 32
0.000000
 14
100000000000000000000.000000
 24
100000000000000000000.000000
 34
100000000000000000000.000000
 15
-100000000000000000000.000000
 25
-100000000000000000000.000000
 35
-100000000000000000000.000000
146
0.000000
 13
0.000000
 23
0.000000
 33
0.000000
 16
1.000000
 26
0.000000
 36
0.000000
 17
0.000000
 27
1.000000
 37
0.000000
 76
     0
330
48e
  0
LAYOUT
  5
495
102
{ACAD_XDICTIONARY
360
7a1
102
}
102
{ACAD_REACTORS
330
48a
102
}
330
48a
100
AcDbPlotSettings
  1

  2

  4

  6

 40
0.000000
 41
0.000000
 42
0.000000
 43
0.000000
 44
0.000000
 45
0.000000
 46
0.000000
 47
0.000000
 48
0.000000
 49
0.000000
140
0.000000
141
0.000000
142
1.000000
143
1.000000
 70
   688
 72
     0
 73
     0
 74
     5
  7

 75
    16
147
1.000000
148
0.000000
149
0.000000
100
AcDbLayout
  1
Layout2
 70
     1
 71
     2
 10
0.000000
 20
0.000000
 11
190.000000
 21
257.000000
 12
0.000000
 22
0.000000
 32
0.000000
 14
0.000000
 24
0.000000
 34
0.000000
 15
0.000000
 25
0.000000
 35
0.000000
146
0.000000
 13
0.000000
 23
0.000000
 33
0.000000
 16
1.000000
 26
0.000000
 36
0.000000
 17
0.000000
 27
1.000000
 37
0.000000
 76
     0
330
495
  0
LAYOUT
  5
496
102
{ACAD_XDICTIONARY
360
7a3
102
}
102
{ACAD_REACTORS
330
48a
102
}
330
48a
100
AcDbPlotSettings
  1

  2

  4

  6

 40
0.000000
 41
0.000000
 42
0.000000
 43
0.000000
 44
0.000000
 45
0.000000
 46
0.000000
 47
0.000000
 48
0.000000
 49
0.000000
140
0.000000
141
0.000000
142
1.000000
143
1.000000
 70
  1712
 72
     0
 73
     0
 74
     0
  7

 75
    16
147
1.000000
148
0.000000
149
0.000000
100
AcDbLayout
  1
Model
 70
     1
 71
     0
 10
0.000000
 20
0.000000
 11
190.000000
 21
257.000000
 12
0.000000
 22
0.000000
 32
0.000000
 14
0.000000
 24
0.000000
 34
0.000000
 15
0.000000
 25
0.000000
 35
0.000000
146
0.000000
 13
0.000000
 23
0.000000
 33
0.000000
 16
1.000000
 26
0.000000
 36
0.000000
 17
0.000000
 27
1.000000
 37
0.000000
 76
     0
330
496
  0
MLINESTYLE
  5
497
102
{ACAD_REACTORS
330
496
102
}
330
496
100
AcDbMlineStyle
  2
STANDARD
 70
     0
  3
 
 62
   256
 51
90.000000
 52
90.000000
 71
     2
 49
0.500000
 62
   256
  6
BYLAYER
 49
-0.500000
 62
   256
  6
BYLAYER
  0
ACDBPLACEHOLDER
  5
498
102
{ACAD_REACTORS
330
497
102
}
330
497
  0
DICTIONARY
  5
79f
100
AcDbDictionary
280
     1
281
     1
  3
ACAD_XREC_ROUNDTRIP
360
7a0
  0
DICTIONARY
  5
7a1
100
AcDbDictionary
280
     1
281
     1
  3
ACAD_XREC_ROUNDTRIP
360
7a2
  0
DICTIONARY
  5
7a3
100
AcDbDictionary
280
     1
281
     1
  3
ACAD_XREC_ROUNDTRIP
360
7a4
  0
XRECORD
  5
7a0
102
{ACAD_REACTORS
330
79f
102
}
330
79f
100
AcDbXrecord
280
     1
102
SHADEPLOT
 70
     0
102
SHADEPLOTRESLEVEL
 70
     2
102
SHADEPLOTCUSTOMDPI
 70
   300
  0
XRECORD
  5
7a2
102
{ACAD_REACTORS
330
7a1
102
}
330
7a1
100
AcDbXrecord
280
     1
102
SHADEPLOT
 70
     0
102
SHADEPLOTRESLEVEL
 70
     2
102
SHADEPLOTCUSTOMDPI
 70
   300
  0
XRECORD
  5
7a4
102
{ACAD_REACTORS
330
7a3
102
}
330
7a3
100
AcDbXrecord
280
     1
102
SHADEPLOT
 70
     0
102
SHADEPLOTRESLEVEL
 70
     2
102
SHADEPLOTCUSTOMDPI
 70
   300
  0
ENDSEC
  0
EOF
